• Shattering Song by Sausage
  • Tabbed by Jeffrey Swing
  • MAIN RIFF
    G ---------------|
    D ---------3-----|
    A -0-3h-5h---5-3-|
    E ---------------|

    INTERLUDE RIFF (adlib)
  •        P   P  P          P   P
    G -----X---X--7\9h-|-----X---X---------|
    D -----------------|------------9-7----|
    A -7-X---X---------|-7-X---X--------10-|
    E -----------------|-------------------|
       S S   S           S S   S        S

  • END INTERLUDE (first time)
  •      P     P P
    G ---9\7h---------|
    D ---------9-7----|
    A -7-----------10-|
    E ----------------|
       S           S
     
  • END INTERLUDE (second time)
  •       P P P
    G ----7-6-7------|
    D ---------------|
    A -7----------7\-|
    E ---------------|
  •    S          S
  • Can, can the butter churn, strike a match and watch it burn.
    Can, can the butter churn, strike a match and watch it burn.
    Can, can the butter churn strike a match and watch it burn.
    Can, can the butter churn strike a match and watch it burn.

    Shattering song shattering along.

    Birds scatter and people chatter and the dog (or sun?) barks at the moon.

    My mother (or grandma??) went to the doctor today,
    he said don't brush your teeth with a spoon.
    Why why why why.
    Shattering song, shatterring along.

    I went to the doctor today he spat something into my brain.
    He said don't put the cat in the microwave.
    ??

    I'll tell you about this boy, the old boy.

    Can, can the butter churn, strike a match and watch it burn

    I'll tell you it's the shattering song, just shatter up a storm if you like.  We could go on, and on, heh heh heh I'll tell 'ya, tell 'ya boy. Woo Doogie!